ISO-10303-21;
HEADER;
FILE_DESCRIPTION (( 'STEP AP203' ),
    '1' );
FILE_NAME ('Q-OZHWP-R2-12.7-248-M.STEP',
    '2020-12-22T09:13:39',
    ( '' ),
    ( '' ),
    'SwSTEP 2.0',
    'SolidWorks 2020',
    '' );
FILE_SCHEMA (( 'CONFIG_CONTROL_DESIGN' ));
ENDSEC;

DATA;
#1 = CC_DESIGN_PERSON_AND_ORGANIZATION_ASSIGNMENT ( #240, #267, ( #42 ) ) ;
#2 = VERTEX_POINT ( 'NONE', #73 ) ;
#3 = PERSON ( 'UNSPECIFIED', 'UNSPECIFIED', 'UNSPECIFIED', ('UNSPECIFIED'), ('UNSPECIFIED'), ('UNSPECIFIED') ) ;
#4 = CARTESIAN_POINT ( 'NONE',  ( 3.000000000000000888, 0.000000000000000000, 0.000000000000000000 ) ) ;
#5 = DIRECTION ( 'NONE',  ( 0.000000000000000000, 0.000000000000000000, 1.000000000000000000 ) ) ;
#6 = APPROVAL ( #197, 'UNSPECIFIED' ) ;
#7 = CYLINDRICAL_SURFACE ( 'NONE', #36, 6.349999999999999645 ) ;
#8 = CALENDAR_DATE ( 2020, 22, 12 ) ;
#9 = CARTESIAN_POINT ( 'NONE',  ( 1.500000000000000888, 0.000000000000000000, 0.000000000000000000 ) ) ;
#10 = CARTESIAN_POINT ( 'NONE',  ( 3.000000000000000888, 7.776507174585692163E-16, -6.349999999999999645 ) ) ;
#11 = LINE ( 'NONE', #327, #290 ) ;
#12 = DIRECTION ( 'NONE',  ( 0.000000000000000000, 0.000000000000000000, 1.000000000000000000 ) ) ;
#13 = AXIS2_PLACEMENT_3D ( 'NONE', #16, #274, #35 ) ;
#14 = CARTESIAN_POINT ( 'NONE',  ( -1.500000000000000444, 0.000000000000000000, 6.349999999999999645 ) ) ;
#15 = LINE ( 'NONE', #272, #21 ) ;
#16 = CARTESIAN_POINT ( 'NONE',  ( -1.614212418857619014, 0.000000000000000000, 0.000000000000000000 ) ) ;
#17 = LOCAL_TIME ( 17, 13, 39.00000000000000000, #206 ) ;
#18 = EDGE_LOOP ( 'NONE', ( #66, #175, #254, #333 ) ) ;
#19 = EDGE_LOOP ( 'NONE', ( #90, #150 ) ) ;
#20 = COORDINATED_UNIVERSAL_TIME_OFFSET ( 8, 0, .AHEAD. ) ;
#21 = VECTOR ( 'NONE', #112, 1000.000000000000000 ) ;
#22 = ORIENTED_EDGE ( 'NONE', *, *, #33, .F. ) ;
#23 = PERSON_AND_ORGANIZATION_ROLE ( 'design_owner' ) ;
#24 = ORIENTED_EDGE ( 'NONE', *, *, #273, .T. ) ;
#25 = EDGE_CURVE ( 'NONE', #69, #329, #315, .T. ) ;
#26 = EDGE_LOOP ( 'NONE', ( #201, #247, #151, #334 ) ) ;
#27 = VECTOR ( 'NONE', #85, 1000.000000000000000 ) ;
#28 = CARTESIAN_POINT ( 'NONE',  ( -3.000000000000000000, 1.555301434917138433E-15, -12.69999999999999929 ) ) ;
#29 = DIRECTION ( 'NONE',  ( 0.000000000000000000, 0.000000000000000000, 1.000000000000000000 ) ) ;
#30 = AXIS2_PLACEMENT_3D ( 'NONE', #106, #31, #292 ) ;
#31 = DIRECTION ( 'NONE',  ( 1.000000000000000000, 0.000000000000000000, 0.000000000000000000 ) ) ;
#32 = LOCAL_TIME ( 17, 13, 39.00000000000000000, #172 ) ;
#33 = EDGE_CURVE ( 'NONE', #288, #228, #222, .T. ) ;
#34 = CARTESIAN_POINT ( 'NONE',  ( -1.614212418857619014, 0.000000000000000000, 0.000000000000000000 ) ) ;
#35 = DIRECTION ( 'NONE',  ( 0.000000000000000000, 0.000000000000000000, 1.000000000000000000 ) ) ;
#36 = AXIS2_PLACEMENT_3D ( 'NONE', #53, #158, #131 ) ;
#37 = AXIS2_PLACEMENT_3D ( 'NONE', #94, #123, #192 ) ;
#38 = CC_DESIGN_PERSON_AND_ORGANIZATION_ASSIGNMENT ( #208, #234, ( #42 ) ) ;
#39 = DIRECTION ( 'NONE',  ( 0.000000000000000000, 0.000000000000000000, 1.000000000000000000 ) ) ;
#40 = CARTESIAN_POINT ( 'NONE',  ( -1.614212418857619014, 0.000000000000000000, 0.000000000000000000 ) ) ;
#41 = CIRCLE ( 'NONE', #159, 6.349999999999999645 ) ;
#42 = PRODUCT_DEFINITION_FORMATION_WITH_SPECIFIED_SOURCE ( 'ANY', '', #214, .NOT_KNOWN. ) ;
#43 = ADVANCED_FACE ( 'NONE', ( #181, #314 ), #231, .F. ) ;
#44 = ORIENTED_EDGE ( 'NONE', *, *, #180, .F. ) ;
#45 = DATE_AND_TIME ( #171, #285 ) ;
#46 = EDGE_LOOP ( 'NONE', ( #195, #177 ) ) ;
#47 = ORIENTED_EDGE ( 'NONE', *, *, #330, .T. ) ;
#48 = EDGE_CURVE ( 'NONE', #329, #69, #328, .T. ) ;
#49 = ORIENTED_EDGE ( 'NONE', *, *, #313, .F. ) ;
#50 = EDGE_CURVE ( 'NONE', #96, #173, #118, .T. ) ;
#51 = CYLINDRICAL_SURFACE ( 'NONE', #232, 12.69999999999999929 ) ;
#52 = CARTESIAN_POINT ( 'NONE',  ( -1.500000000000000444, 0.000000000000000000, 0.000000000000000000 ) ) ;
#53 = CARTESIAN_POINT ( 'NONE',  ( -1.614212418857619014, 0.000000000000000000, 0.000000000000000000 ) ) ;
#54 = ADVANCED_FACE ( 'NONE', ( #80 ), #51, .T. ) ;
#55 = CARTESIAN_POINT ( 'NONE',  ( 3.000000000000000000, 0.000000000000000000, 0.000000000000000000 ) ) ;
#56 = CC_DESIGN_DATE_AND_TIME_ASSIGNMENT ( #160, #77, ( #305 ) ) ;
#57 = LINE ( 'NONE', #189, #27 ) ;
#58 = DIRECTION ( 'NONE',  ( -1.000000000000000000, -0.000000000000000000, -0.000000000000000000 ) ) ;
#59 = PERSON_AND_ORGANIZATION_ROLE ( 'classification_officer' ) ;
#60 = CC_DESIGN_DATE_AND_TIME_ASSIGNMENT ( #225, #332, ( #115 ) ) ;
#61 = DIRECTION ( 'NONE',  ( -1.000000000000000000, -0.000000000000000000, -0.000000000000000000 ) ) ;
#62 = CARTESIAN_POINT ( 'NONE',  ( 3.000000000000000888, 0.000000000000000000, 0.000000000000000000 ) ) ;
#63 = CARTESIAN_POINT ( 'NONE',  ( -1.614212418857619014, 7.776507174585692163E-16, -6.349999999999999645 ) ) ;
#64 = APPLICATION_PROTOCOL_DEFINITION ( 'international standard', 'config_control_design', 1994, #212 ) ;
#65 = AXIS2_PLACEMENT_3D ( 'NONE', #62, #61, #213 ) ;
#66 = ORIENTED_EDGE ( 'NONE', *, *, #143, .F. ) ;
#67 = VERTEX_POINT ( 'NONE', #28 ) ;
#68 =( NAMED_UNIT ( * ) PLANE_ANGLE_UNIT ( ) SI_UNIT ( $, .RADIAN. ) );
#69 = VERTEX_POINT ( 'NONE', #161 ) ;
#70 = AXIS2_PLACEMENT_3D ( 'NONE', #55, #321, #81 ) ;
#71 = ORIENTED_EDGE ( 'NONE', *, *, #330, .F. ) ;
#72 = ORIENTED_EDGE ( 'NONE', *, *, #109, .T. ) ;
#73 = CARTESIAN_POINT ( 'NONE',  ( -3.000000000000000000, 0.000000000000000000, 12.69999999999999929 ) ) ;
#74 = AXIS2_PLACEMENT_3D ( 'NONE', #320, #178, #289 ) ;
#75 = AXIS2_PLACEMENT_3D ( 'NONE', #40, #110, #215 ) ;
#76 = DIRECTION ( 'NONE',  ( 0.000000000000000000, 0.000000000000000000, 1.000000000000000000 ) ) ;
#77 = DATE_TIME_ROLE ( 'classification_date' ) ;
#78 = DIRECTION ( 'NONE',  ( 0.000000000000000000, 0.000000000000000000, -1.000000000000000000 ) ) ;
#79 = SHAPE_DEFINITION_REPRESENTATION ( #128, #194 ) ;
#80 = FACE_OUTER_BOUND ( 'NONE', #18, .T. ) ;
#81 = DIRECTION ( 'NONE',  ( 0.000000000000000000, 0.000000000000000000, 1.000000000000000000 ) ) ;
#82 = DIRECTION ( 'NONE',  ( 1.000000000000000000, 0.000000000000000000, 0.000000000000000000 ) ) ;
#83 = CARTESIAN_POINT ( 'NONE',  ( -1.500000000000000444, 0.000000000000000000, 0.000000000000000000 ) ) ;
#84 = APPROVAL ( #279, 'UNSPECIFIED' ) ;
#85 = DIRECTION ( 'NONE',  ( -1.000000000000000000, -0.000000000000000000, -0.000000000000000000 ) ) ;
#86 = DIRECTION ( 'NONE',  ( -1.000000000000000000, 0.000000000000000000, -0.000000000000000000 ) ) ;
#87 = ADVANCED_FACE ( 'NONE', ( #266 ), #155, .F. ) ;
#88 = CARTESIAN_POINT ( 'NONE',  ( 3.000000000000000000, 1.555301434917138433E-15, -12.69999999999999929 ) ) ;
#89 = MECHANICAL_CONTEXT ( 'NONE', #212, 'mechanical' ) ;
#90 = ORIENTED_EDGE ( 'NONE', *, *, #25, .F. ) ;
#91 = PERSON_AND_ORGANIZATION ( #3, #205 ) ;
#92 = EDGE_CURVE ( 'NONE', #311, #198, #249, .T. ) ;
#93 = ORIENTED_EDGE ( 'NONE', *, *, #313, .T. ) ;
#94 = CARTESIAN_POINT ( 'NONE',  ( 0.000000000000000000, 0.000000000000000000, 0.000000000000000000 ) ) ;
#95 = EDGE_LOOP ( 'NONE', ( #22, #221 ) ) ;
#96 = VERTEX_POINT ( 'NONE', #10 ) ;
#97 = ORIENTED_EDGE ( 'NONE', *, *, #50, .T. ) ;
#98 = FACE_OUTER_BOUND ( 'NONE', #46, .T. ) ;
#99 = DIRECTION ( 'NONE',  ( -1.000000000000000000, -0.000000000000000000, -0.000000000000000000 ) ) ;
#100 = APPROVAL_ROLE ( '' ) ;
#101 = DIRECTION ( 'NONE',  ( -1.000000000000000000, 0.000000000000000000, -0.000000000000000000 ) ) ;
#102 = CC_DESIGN_SECURITY_CLASSIFICATION ( #305, ( #42 ) ) ;
#103 = APPROVAL_STATUS ( 'not_yet_approved' ) ;
#104 = CARTESIAN_POINT ( 'NONE',  ( -2.999999999999999556, 0.000000000000000000, 0.000000000000000000 ) ) ;
#105 = APPROVAL_DATE_TIME ( #130, #6 ) ;
#106 = CARTESIAN_POINT ( 'NONE',  ( -1.500000000000000444, 6.349999999999999645, 0.000000000000000000 ) ) ;
#107 = CLOSED_SHELL ( 'NONE', ( #261, #245, #230, #87, #145, #287, #43, #54, #301, #117 ) ) ;
#108 = DIRECTION ( 'NONE',  ( -1.000000000000000000, -0.000000000000000000, -0.000000000000000000 ) ) ;
#109 = EDGE_CURVE ( 'NONE', #198, #311, #41, .T. ) ;
#110 = DIRECTION ( 'NONE',  ( -1.000000000000000000, -0.000000000000000000, -0.000000000000000000 ) ) ;
#111 = DIRECTION ( 'NONE',  ( -1.000000000000000000, -0.000000000000000000, -0.000000000000000000 ) ) ;
#112 = DIRECTION ( 'NONE',  ( -1.000000000000000000, -0.000000000000000000, -0.000000000000000000 ) ) ;
#113 = CARTESIAN_POINT ( 'NONE',  ( -2.999999999999999556, 7.776507174585692163E-16, -6.349999999999999645 ) ) ;
#114 = VECTOR ( 'NONE', #58, 1000.000000000000000 ) ;
#115 = PRODUCT_DEFINITION ( 'UNKNOWN', '', #42, #182 ) ;
#116 = ORIENTED_EDGE ( 'NONE', *, *, #180, .T. ) ;
#117 = ADVANCED_FACE ( 'NONE', ( #98 ), #229, .F. ) ;
#118 = CIRCLE ( 'NONE', #164, 6.349999999999999645 ) ;
#119 = CALENDAR_DATE ( 2020, 22, 12 ) ;
#120 = CC_DESIGN_PERSON_AND_ORGANIZATION_ASSIGNMENT ( #144, #23, ( #214 ) ) ;
#121 = AXIS2_PLACEMENT_3D ( 'NONE', #191, #111, #12 ) ;
#122 = ORIENTED_EDGE ( 'NONE', *, *, #92, .T. ) ;
#123 = DIRECTION ( 'NONE',  ( 0.000000000000000000, 0.000000000000000000, 1.000000000000000000 ) ) ;
#124 = EDGE_LOOP ( 'NONE', ( #226, #308 ) ) ;
#125 = CC_DESIGN_APPROVAL ( #6, ( #42 ) ) ;
#126 = DIRECTION ( 'NONE',  ( -1.000000000000000000, -0.000000000000000000, -0.000000000000000000 ) ) ;
#127 = DIRECTION ( 'NONE',  ( 0.000000000000000000, 0.000000000000000000, 1.000000000000000000 ) ) ;
#128 = PRODUCT_DEFINITION_SHAPE ( 'NONE', 'NONE',  #115 ) ;
#129 = FACE_OUTER_BOUND ( 'NONE', #312, .T. ) ;
#130 = DATE_AND_TIME ( #280, #32 ) ;
#131 = DIRECTION ( 'NONE',  ( 0.000000000000000000, 0.000000000000000000, 1.000000000000000000 ) ) ;
#132 = APPROVAL_DATE_TIME ( #157, #253 ) ;
#133 = LINE ( 'NONE', #302, #251 ) ;
#134 = EDGE_CURVE ( 'NONE', #282, #153, #262, .T. ) ;
#135 = FACE_OUTER_BOUND ( 'NONE', #95, .T. ) ;
#136 = AXIS2_PLACEMENT_3D ( 'NONE', #244, #238, #299 ) ;
#137 = FACE_OUTER_BOUND ( 'NONE', #26, .T. ) ;
#138 = CYLINDRICAL_SURFACE ( 'NONE', #13, 12.69999999999999929 ) ;
#139 = DIRECTION ( 'NONE',  ( -0.000000000000000000, 0.000000000000000000, 1.000000000000000000 ) ) ;
#140 = AXIS2_PLACEMENT_3D ( 'NONE', #236, #318, #76 ) ;
#141 =( NAMED_UNIT ( * ) SI_UNIT ( $, .STERADIAN. ) SOLID_ANGLE_UNIT ( ) );
#142 = LOCAL_TIME ( 17, 13, 39.00000000000000000, #294 ) ;
#143 = EDGE_CURVE ( 'NONE', #228, #67, #211, .T. ) ;
#144 = PERSON_AND_ORGANIZATION ( #3, #205 ) ;
#145 = ADVANCED_FACE ( 'NONE', ( #129 ), #7, .F. ) ;
#146 = ORIENTED_EDGE ( 'NONE', *, *, #203, .T. ) ;
#147 = APPROVAL_DATE_TIME ( #45, #84 ) ;
#148 = ORIENTED_EDGE ( 'NONE', *, *, #50, .F. ) ;
#149 =( LENGTH_UNIT ( ) NAMED_UNIT ( * ) SI_UNIT ( .MILLI., .METRE. ) );
#150 = ORIENTED_EDGE ( 'NONE', *, *, #48, .F. ) ;
#151 = ORIENTED_EDGE ( 'NONE', *, *, #273, .F. ) ;
#152 = ORIENTED_EDGE ( 'NONE', *, *, #216, .F. ) ;
#153 = VERTEX_POINT ( 'NONE', #295 ) ;
#154 = AXIS2_PLACEMENT_3D ( 'NONE', #165, #162, #39 ) ;
#155 = PLANE ( 'NONE',  #325 ) ;
#156 = DIRECTION ( 'NONE',  ( 0.000000000000000000, 0.000000000000000000, -1.000000000000000000 ) ) ;
#157 = DATE_AND_TIME ( #183, #142 ) ;
#158 = DIRECTION ( 'NONE',  ( -1.000000000000000000, -0.000000000000000000, -0.000000000000000000 ) ) ;
#159 = AXIS2_PLACEMENT_3D ( 'NONE', #293, #99, #204 ) ;
#160 = DATE_AND_TIME ( #8, #17 ) ;
#161 = CARTESIAN_POINT ( 'NONE',  ( -2.999999999999999556, 0.000000000000000000, 6.349999999999999645 ) ) ;
#162 = DIRECTION ( 'NONE',  ( -1.000000000000000000, -0.000000000000000000, -0.000000000000000000 ) ) ;
#163 = UNCERTAINTY_MEASURE_WITH_UNIT (LENGTH_MEASURE( 1.000000000000000082E-05 ), #149, 'distance_accuracy_value', 'NONE');
#164 = AXIS2_PLACEMENT_3D ( 'NONE', #4, #126, #5 ) ;
#165 = CARTESIAN_POINT ( 'NONE',  ( -1.614212418857619014, 0.000000000000000000, 0.000000000000000000 ) ) ;
#166 = EDGE_CURVE ( 'NONE', #228, #288, #284, .T. ) ;
#167 = FACE_OUTER_BOUND ( 'NONE', #227, .T. ) ;
#168 = CARTESIAN_POINT ( 'NONE',  ( 3.000000000000000000, 12.69999999999999929, 0.000000000000000000 ) ) ;
#169 = DIRECTION ( 'NONE',  ( -1.000000000000000000, -0.000000000000000000, -0.000000000000000000 ) ) ;
#170 = APPROVAL_ROLE ( '' ) ;
#171 = CALENDAR_DATE ( 2020, 22, 12 ) ;
#172 = COORDINATED_UNIVERSAL_TIME_OFFSET ( 8, 0, .AHEAD. ) ;
#173 = VERTEX_POINT ( 'NONE', #186 ) ;
#174 = EDGE_CURVE ( 'NONE', #288, #2, #57, .T. ) ;
#175 = ORIENTED_EDGE ( 'NONE', *, *, #166, .T. ) ;
#176 = EDGE_CURVE ( 'NONE', #67, #2, #265, .T. ) ;
#177 = ORIENTED_EDGE ( 'NONE', *, *, #235, .F. ) ;
#178 = DIRECTION ( 'NONE',  ( -1.000000000000000000, -0.000000000000000000, -0.000000000000000000 ) ) ;
#179 = APPROVAL_PERSON_ORGANIZATION ( #220, #84, #170 ) ;
#180 = EDGE_CURVE ( 'NONE', #282, #69, #11, .T. ) ;
#181 = FACE_BOUND ( 'NONE', #19, .T. ) ;
#182 = DESIGN_CONTEXT ( 'detailed design', #281, 'design' ) ;
#183 = CALENDAR_DATE ( 2020, 22, 12 ) ;
#184 = DIRECTION ( 'NONE',  ( -0.000000000000000000, 0.000000000000000000, 1.000000000000000000 ) ) ;
#185 = CARTESIAN_POINT ( 'NONE',  ( -1.614212418857619014, 1.555301434917138433E-15, -12.69999999999999929 ) ) ;
#186 = CARTESIAN_POINT ( 'NONE',  ( 3.000000000000000888, 0.000000000000000000, 6.349999999999999645 ) ) ;
#187 = FACE_OUTER_BOUND ( 'NONE', #283, .T. ) ;
#188 = AXIS2_PLACEMENT_3D ( 'NONE', #9, #202, #29 ) ;
#189 = CARTESIAN_POINT ( 'NONE',  ( -1.614212418857619014, 0.000000000000000000, 12.69999999999999929 ) ) ;
#190 = LINE ( 'NONE', #63, #114 ) ;
#191 = CARTESIAN_POINT ( 'NONE',  ( -1.614212418857619014, 0.000000000000000000, 0.000000000000000000 ) ) ;
#192 = DIRECTION ( 'NONE',  ( 1.000000000000000000, 0.000000000000000000, 0.000000000000000000 ) ) ;
#193 = AXIS2_PLACEMENT_3D ( 'NONE', #104, #264, #127 ) ;
#194 = ADVANCED_BREP_SHAPE_REPRESENTATION ( 'Q-OZHWP-R2-12.7-248-M', ( #243, #37 ), #331 ) ;
#195 = ORIENTED_EDGE ( 'NONE', *, *, #134, .F. ) ;
#196 = AXIS2_PLACEMENT_3D ( 'NONE', #323, #241, #300 ) ;
#197 = APPROVAL_STATUS ( 'not_yet_approved' ) ;
#198 = VERTEX_POINT ( 'NONE', #269 ) ;
#199 = EDGE_LOOP ( 'NONE', ( #24, #256 ) ) ;
#200 = EDGE_LOOP ( 'NONE', ( #152, #255, #116, #250 ) ) ;
#201 = ORIENTED_EDGE ( 'NONE', *, *, #33, .T. ) ;
#202 = DIRECTION ( 'NONE',  ( -1.000000000000000000, -0.000000000000000000, -0.000000000000000000 ) ) ;
#203 = EDGE_CURVE ( 'NONE', #173, #96, #224, .T. ) ;
#204 = DIRECTION ( 'NONE',  ( 0.000000000000000000, 0.000000000000000000, 1.000000000000000000 ) ) ;
#205 = ORGANIZATION ( 'UNSPECIFIED', 'UNSPECIFIED', '' ) ;
#206 = COORDINATED_UNIVERSAL_TIME_OFFSET ( 8, 0, .AHEAD. ) ;
#207 = DIRECTION ( 'NONE',  ( 0.000000000000000000, 0.000000000000000000, 1.000000000000000000 ) ) ;
#208 = PERSON_AND_ORGANIZATION ( #3, #205 ) ;
#209 = DIRECTION ( 'NONE',  ( 1.000000000000000000, 0.000000000000000000, 0.000000000000000000 ) ) ;
#210 = PERSON_AND_ORGANIZATION ( #3, #205 ) ;
#211 = LINE ( 'NONE', #185, #219 ) ;
#212 = APPLICATION_CONTEXT ( 'configuration controlled 3d designs of mechanical parts and assemblies' ) ;
#213 = DIRECTION ( 'NONE',  ( 0.000000000000000000, 0.000000000000000000, 1.000000000000000000 ) ) ;
#214 = PRODUCT ( 'Q-OZHWP-R2-12.7-248-M', 'Q-OZHWP-R2-12.7-248-M', '', ( #89 ) ) ;
#215 = DIRECTION ( 'NONE',  ( 0.000000000000000000, 0.000000000000000000, 1.000000000000000000 ) ) ;
#216 = EDGE_CURVE ( 'NONE', #153, #329, #190, .T. ) ;
#217 = FACE_BOUND ( 'NONE', #286, .T. ) ;
#218 = FACE_OUTER_BOUND ( 'NONE', #200, .T. ) ;
#219 = VECTOR ( 'NONE', #260, 1000.000000000000000 ) ;
#220 = PERSON_AND_ORGANIZATION ( #3, #205 ) ;
#221 = ORIENTED_EDGE ( 'NONE', *, *, #166, .F. ) ;
#222 = CIRCLE ( 'NONE', #140, 12.69999999999999929 ) ;
#223 = ORIENTED_EDGE ( 'NONE', *, *, #203, .F. ) ;
#224 = CIRCLE ( 'NONE', #65, 6.349999999999999645 ) ;
#225 = DATE_AND_TIME ( #119, #296 ) ;
#226 = ORIENTED_EDGE ( 'NONE', *, *, #109, .F. ) ;
#227 = EDGE_LOOP ( 'NONE', ( #148, #47, #122, #49 ) ) ;
#228 = VERTEX_POINT ( 'NONE', #88 ) ;
#229 = PLANE ( 'NONE',  #30 ) ;
#230 = ADVANCED_FACE ( 'NONE', ( #167 ), #322, .F. ) ;
#231 = PLANE ( 'NONE',  #237 ) ;
#232 = AXIS2_PLACEMENT_3D ( 'NONE', #34, #257, #207 ) ;
#233 = DIRECTION ( 'NONE',  ( 1.000000000000000000, 0.000000000000000000, 0.000000000000000000 ) ) ;
#234 = PERSON_AND_ORGANIZATION_ROLE ( 'creator' ) ;
#235 = EDGE_CURVE ( 'NONE', #153, #282, #270, .T. ) ;
#236 = CARTESIAN_POINT ( 'NONE',  ( 3.000000000000000000, 0.000000000000000000, 0.000000000000000000 ) ) ;
#237 = AXIS2_PLACEMENT_3D ( 'NONE', #297, #209, #78 ) ;
#238 = DIRECTION ( 'NONE',  ( -1.000000000000000000, -0.000000000000000000, -0.000000000000000000 ) ) ;
#239 = AXIS2_PLACEMENT_3D ( 'NONE', #168, #86, #139 ) ;
#240 = PERSON_AND_ORGANIZATION ( #3, #205 ) ;
#241 = DIRECTION ( 'NONE',  ( -1.000000000000000000, -0.000000000000000000, -0.000000000000000000 ) ) ;
#242 = CARTESIAN_POINT ( 'NONE',  ( 1.500000000000000888, 7.776507174585692163E-16, -6.349999999999999645 ) ) ;
#243 = MANIFOLD_SOLID_BREP ( 'Ðý×', #107 ) ;
#244 = CARTESIAN_POINT ( 'NONE',  ( -3.000000000000000000, 0.000000000000000000, 0.000000000000000000 ) ) ;
#245 = ADVANCED_FACE ( 'NONE', ( #187 ), #298, .F. ) ;
#246 = CC_DESIGN_PERSON_AND_ORGANIZATION_ASSIGNMENT ( #248, #278, ( #115 ) ) ;
#247 = ORIENTED_EDGE ( 'NONE', *, *, #143, .T. ) ;
#248 = PERSON_AND_ORGANIZATION ( #3, #205 ) ;
#249 = CIRCLE ( 'NONE', #188, 6.349999999999999645 ) ;
#250 = ORIENTED_EDGE ( 'NONE', *, *, #25, .T. ) ;
#251 = VECTOR ( 'NONE', #169, 1000.000000000000000 ) ;
#252 = APPROVAL_PERSON_ORGANIZATION ( #319, #253, #100 ) ;
#253 = APPROVAL ( #103, 'UNSPECIFIED' ) ;
#254 = ORIENTED_EDGE ( 'NONE', *, *, #174, .T. ) ;
#255 = ORIENTED_EDGE ( 'NONE', *, *, #235, .T. ) ;
#256 = ORIENTED_EDGE ( 'NONE', *, *, #176, .T. ) ;
#257 = DIRECTION ( 'NONE',  ( -1.000000000000000000, -0.000000000000000000, -0.000000000000000000 ) ) ;
#258 = AXIS2_PLACEMENT_3D ( 'NONE', #83, #82, #271 ) ;
#259 = CARTESIAN_POINT ( 'NONE',  ( 1.500000000000000444, 6.349999999999999645, 0.000000000000000000 ) ) ;
#260 = DIRECTION ( 'NONE',  ( -1.000000000000000000, -0.000000000000000000, -0.000000000000000000 ) ) ;
#261 = ADVANCED_FACE ( 'NONE', ( #137 ), #138, .T. ) ;
#262 = CIRCLE ( 'NONE', #276, 6.349999999999999645 ) ;
#263 = SECURITY_CLASSIFICATION_LEVEL ( 'unclassified' ) ;
#264 = DIRECTION ( 'NONE',  ( -1.000000000000000000, -0.000000000000000000, -0.000000000000000000 ) ) ;
#265 = CIRCLE ( 'NONE', #136, 12.69999999999999929 ) ;
#266 = FACE_OUTER_BOUND ( 'NONE', #124, .T. ) ;
#267 = PERSON_AND_ORGANIZATION_ROLE ( 'design_supplier' ) ;
#268 = CYLINDRICAL_SURFACE ( 'NONE', #121, 6.349999999999999645 ) ;
#269 = CARTESIAN_POINT ( 'NONE',  ( 1.500000000000000888, 0.000000000000000000, 6.349999999999999645 ) ) ;
#270 = CIRCLE ( 'NONE', #258, 6.349999999999999645 ) ;
#271 = DIRECTION ( 'NONE',  ( 0.000000000000000000, 0.000000000000000000, -1.000000000000000000 ) ) ;
#272 = CARTESIAN_POINT ( 'NONE',  ( -1.614212418857619014, 0.000000000000000000, 6.349999999999999645 ) ) ;
#273 = EDGE_CURVE ( 'NONE', #2, #67, #304, .T. ) ;
#274 = DIRECTION ( 'NONE',  ( -1.000000000000000000, -0.000000000000000000, -0.000000000000000000 ) ) ;
#275 = PRODUCT_RELATED_PRODUCT_CATEGORY ( 'detail', '', ( #214 ) ) ;
#276 = AXIS2_PLACEMENT_3D ( 'NONE', #52, #233, #156 ) ;
#277 = APPROVAL_PERSON_ORGANIZATION ( #91, #6, #307 ) ;
#278 = PERSON_AND_ORGANIZATION_ROLE ( 'creator' ) ;
#279 = APPROVAL_STATUS ( 'not_yet_approved' ) ;
#280 = CALENDAR_DATE ( 2020, 22, 12 ) ;
#281 = APPLICATION_CONTEXT ( 'configuration controlled 3d designs of mechanical parts and assemblies' ) ;
#282 = VERTEX_POINT ( 'NONE', #14 ) ;
#283 = EDGE_LOOP ( 'NONE', ( #335, #310, #306, #44 ) ) ;
#284 = CIRCLE ( 'NONE', #70, 12.69999999999999929 ) ;
#285 = LOCAL_TIME ( 17, 13, 39.00000000000000000, #303 ) ;
#286 = EDGE_LOOP ( 'NONE', ( #146, #97 ) ) ;
#287 = ADVANCED_FACE ( 'NONE', ( #218 ), #268, .F. ) ;
#288 = VERTEX_POINT ( 'NONE', #326 ) ;
#289 = DIRECTION ( 'NONE',  ( 0.000000000000000000, 0.000000000000000000, 1.000000000000000000 ) ) ;
#290 = VECTOR ( 'NONE', #108, 1000.000000000000000 ) ;
#291 = CC_DESIGN_APPROVAL ( #253, ( #305 ) ) ;
#292 = DIRECTION ( 'NONE',  ( 0.000000000000000000, 0.000000000000000000, -1.000000000000000000 ) ) ;
#293 = CARTESIAN_POINT ( 'NONE',  ( 1.500000000000000888, 0.000000000000000000, 0.000000000000000000 ) ) ;
#294 = COORDINATED_UNIVERSAL_TIME_OFFSET ( 8, 0, .AHEAD. ) ;
#295 = CARTESIAN_POINT ( 'NONE',  ( -1.500000000000000444, 7.776507174585692163E-16, -6.349999999999999645 ) ) ;
#296 = LOCAL_TIME ( 17, 13, 39.00000000000000000, #20 ) ;
#297 = CARTESIAN_POINT ( 'NONE',  ( -3.000000000000000000, 6.349999999999999645, 0.000000000000000000 ) ) ;
#298 = CYLINDRICAL_SURFACE ( 'NONE', #154, 6.349999999999999645 ) ;
#299 = DIRECTION ( 'NONE',  ( 0.000000000000000000, 0.000000000000000000, 1.000000000000000000 ) ) ;
#300 = DIRECTION ( 'NONE',  ( 0.000000000000000000, 0.000000000000000000, 1.000000000000000000 ) ) ;
#301 = ADVANCED_FACE ( 'NONE', ( #135, #217 ), #324, .F. ) ;
#302 = CARTESIAN_POINT ( 'NONE',  ( -1.614212418857619014, 7.776507174585692163E-16, -6.349999999999999645 ) ) ;
#303 = COORDINATED_UNIVERSAL_TIME_OFFSET ( 8, 0, .AHEAD. ) ;
#304 = CIRCLE ( 'NONE', #196, 12.69999999999999929 ) ;
#305 = SECURITY_CLASSIFICATION ( '', '', #263 ) ;
#306 = ORIENTED_EDGE ( 'NONE', *, *, #48, .T. ) ;
#307 = APPROVAL_ROLE ( '' ) ;
#308 = ORIENTED_EDGE ( 'NONE', *, *, #92, .F. ) ;
#309 = APPLICATION_PROTOCOL_DEFINITION ( 'international standard', 'config_control_design', 1994, #281 ) ;
#310 = ORIENTED_EDGE ( 'NONE', *, *, #216, .T. ) ;
#311 = VERTEX_POINT ( 'NONE', #242 ) ;
#312 = EDGE_LOOP ( 'NONE', ( #71, #223, #93, #72 ) ) ;
#313 = EDGE_CURVE ( 'NONE', #173, #198, #15, .T. ) ;
#314 = FACE_OUTER_BOUND ( 'NONE', #199, .T. ) ;
#315 = CIRCLE ( 'NONE', #193, 6.349999999999999645 ) ;
#316 = CC_DESIGN_APPROVAL ( #84, ( #115 ) ) ;
#317 = CC_DESIGN_PERSON_AND_ORGANIZATION_ASSIGNMENT ( #210, #59, ( #305 ) ) ;
#318 = DIRECTION ( 'NONE',  ( -1.000000000000000000, -0.000000000000000000, -0.000000000000000000 ) ) ;
#319 = PERSON_AND_ORGANIZATION ( #3, #205 ) ;
#320 = CARTESIAN_POINT ( 'NONE',  ( -2.999999999999999556, 0.000000000000000000, 0.000000000000000000 ) ) ;
#321 = DIRECTION ( 'NONE',  ( -1.000000000000000000, -0.000000000000000000, -0.000000000000000000 ) ) ;
#322 = CYLINDRICAL_SURFACE ( 'NONE', #75, 6.349999999999999645 ) ;
#323 = CARTESIAN_POINT ( 'NONE',  ( -3.000000000000000000, 0.000000000000000000, 0.000000000000000000 ) ) ;
#324 = PLANE ( 'NONE',  #239 ) ;
#325 = AXIS2_PLACEMENT_3D ( 'NONE', #259, #101, #184 ) ;
#326 = CARTESIAN_POINT ( 'NONE',  ( 3.000000000000000000, 0.000000000000000000, 12.69999999999999929 ) ) ;
#327 = CARTESIAN_POINT ( 'NONE',  ( -1.614212418857619014, 0.000000000000000000, 6.349999999999999645 ) ) ;
#328 = CIRCLE ( 'NONE', #74, 6.349999999999999645 ) ;
#329 = VERTEX_POINT ( 'NONE', #113 ) ;
#330 = EDGE_CURVE ( 'NONE', #96, #311, #133, .T. ) ;
#331 =( GEOMETRIC_REPRESENTATION_CONTEXT ( 3 ) GLOBAL_UNCERTAINTY_ASSIGNED_CONTEXT ( ( #163 ) ) GLOBAL_UNIT_ASSIGNED_CONTEXT ( ( #149, #68, #141 ) ) REPRESENTATION_CONTEXT ( 'NONE', 'WORKASPACE' ) );
#332 = DATE_TIME_ROLE ( 'creation_date' ) ;
#333 = ORIENTED_EDGE ( 'NONE', *, *, #176, .F. ) ;
#334 = ORIENTED_EDGE ( 'NONE', *, *, #174, .F. ) ;
#335 = ORIENTED_EDGE ( 'NONE', *, *, #134, .T. ) ;
ENDSEC;
END-ISO-10303-21;
